It is currently Thu Jul 02, 2020 11:38 am

All times are UTC




Post new topic Reply to topic  [ 2 posts ] 
Author Message
PostPosted: Wed Dec 22, 2010 12:34 am 
Offline
User avatar

Joined: Sun Aug 09, 2009 11:08 pm
Posts: 17
Hi!
I realise that I request tabs and don't ever provide any so just so it isn't all take and no give with me, here's how I play Cleveland, if anybody's interested.
It is basic, but effective I think.

Hope it makes sense, I typed it out quickly

Cleveland

Main Riff Played for Verses:
Note: 11 is eleventh fret, not first fret twice :grin: similarly 13 is thirteenth. You get the idea.

e|--------------------------------------------------|
B|--------------------------------------------------|
G|--------------------------------------------------|
D|--222 slide to 44----------------------------------|
A|--222----------44--------------------------------|
E|--------------------------------------------------|

e|--------------------------------------------------|
B|--------------------------------------------------|
G|--9slide11—11slide9-------------------------------|
D|---------------------9slide11---------------------|
A|--------------------------------------------------|
E|--------------------------------------------------|

Em B A (sounds better with barre chords)
But man, I believed him
Em B A
And what he’d say about Cleveland
Em B A
My American dreamboat



Em G D Back to Main Riff
He said someday I’d be something:

Solo:

e|------------------------------------------------------------|
B|------------------------------------------------------------|
G|--13bend up a lot --------9slide11-11slide9------------------|
D|------------------12----------------------------9slide11-------|
A|------------------------------------------------------------|
E|------------------------------------------------------------|

Hope that works out ok.

_________________
...on the run again...


Top
 Profile  
 
PostPosted: Wed Dec 29, 2010 11:32 am 
Offline
User avatar

Joined: Sun Aug 09, 2009 11:08 pm
Posts: 17
Oops, just fixed few minor things. My apologies.
Cleveland

Main Riff Played for Verses:
Note: 11 is eleventh fret, not first fret twice similarly 13 is thirteenth. You get the idea.

e|--------------------------------------------------|
B|--------------------------------------------------|
G|--------------------------------------------------|
D|--222 slide to 44----------------------------------|
A|--222----------44--------------------------------|
E|--------------------------------------------------|

e|--------------------------------------------------|
B|--------------------------------------------------|
G|--9slide11—11slide9-------------------------------|
D|-------------------------9-9slide11---------------------|
A|--------------------------------------------------|
E|--------------------------------------------------|

Em B A (sounds better with barre chords)
But man, I believed him
Em B A
And what he’d say about Cleveland
Em B A
My American dreamboat



Em G D Back to Main Riff
He said someday I’d be something:

Solo:

e|------------------------------------------------------------|
B|------------------------------------------------------------|
G|--13bend up a lot --------9slide11-11slide9------------------|
D|------------------12------------------------------9--9slide11---|
A|------------------------------------------------------------|
E|------------------------------------------------------------|

_________________
...on the run again...


Top
 Profile  
 
Display posts from previous:  Sort by  
Post new topic Reply to topic  [ 2 posts ] 

All times are UTC


Who is online

Users browsing this forum: No registered users and 1 guest


You cannot post new topics in this forum
You cannot reply to topics in this forum
You cannot edit your posts in this forum
You cannot delete your posts in this forum

Search for:
Jump to: